ISO-10303-21;
HEADER;
/* Generated by software containing ST-Developer
 * from STEP Tools, Inc. (www.steptools.com) 
 */
/* OPTION: using custom renumber hook */

FILE_DESCRIPTION(
/* description */ ('STEP AP214'),
/* implementation_level */ '2;1');

FILE_NAME(
/* name */ 'CPN18-2Z',
/* time_stamp */ '2024-08-06T11:31:49+02:00',
/* author */ ('License CC BY-ND 4.0'),
/* organization */ ('CADENAS'),
/* preprocessor_version */ 'ST-DEVELOPER v19.3',
/* originating_system */ 'PARTsolutions',
/* authorisation */ '  ');

FILE_SCHEMA (('AUTOMOTIVE_DESIGN {1 0 10303 214 3 1 1}'));
ENDSEC;

DATA;
#10=PROPERTY_DEFINITION_REPRESENTATION(#14,#12);
#11=PROPERTY_DEFINITION_REPRESENTATION(#15,#13);
#12=REPRESENTATION('',(#16),#599);
#13=REPRESENTATION('',(#17),#599);
#14=PROPERTY_DEFINITION('pmi validation property','',#604);
#15=PROPERTY_DEFINITION('pmi validation property','',#604);
#16=VALUE_REPRESENTATION_ITEM('number of annotations',COUNT_MEASURE(0.));
#17=VALUE_REPRESENTATION_ITEM('number of views',COUNT_MEASURE(0.));
#18=SHAPE_REPRESENTATION_RELATIONSHIP('','',#358,#19);
#19=ADVANCED_BREP_SHAPE_REPRESENTATION('',(#356),#599);
#20=VERTEX_LOOP('',#192);
#21=VERTEX_LOOP('',#205);
#22=DEGENERATE_TOROIDAL_SURFACE('',#382,0.0346768300530367,9.27999999999997,
 .T.);
#23=CYLINDRICAL_SURFACE('',#368,6.965);
#24=CYLINDRICAL_SURFACE('',#394,3.);
#25=CYLINDRICAL_SURFACE('',#399,1.621);
#26=CONICAL_SURFACE('',#362,5.6,0.785398163397446);
#27=CONICAL_SURFACE('',#366,6.09087730188076,0.645771823237902);
#28=CONICAL_SURFACE('',#370,6.965,0.645771823237902);
#29=CONICAL_SURFACE('',#374,5.8,0.785398163397446);
#30=CONICAL_SURFACE('',#378,3.75,1.20427718387609);
#31=CONICAL_SURFACE('',#392,2.68245735194571,0.523598775598299);
#32=CONICAL_SURFACE('',#397,2.,0.785398163397448);
#33=CONICAL_SURFACE('',#401,1.621,1.02974425867665);
#34=LINE('',#510,#52);
#35=LINE('',#513,#53);
#36=LINE('',#515,#54);
#37=LINE('',#517,#55);
#38=LINE('',#519,#56);
#39=LINE('',#521,#57);
#40=LINE('',#555,#58);
#41=LINE('',#558,#59);
#42=LINE('',#559,#60);
#43=LINE('',#561,#61);
#44=LINE('',#563,#62);
#45=LINE('',#565,#63);
#46=LINE('',#567,#64);
#47=LINE('',#569,#65);
#48=LINE('',#571,#66);
#49=LINE('',#573,#67);
#50=LINE('',#575,#68);
#51=LINE('',#577,#69);
#52=VECTOR('',#408,1000.);
#53=VECTOR('',#409,1000.);
#54=VECTOR('',#410,1000.);
#55=VECTOR('',#411,1000.);
#56=VECTOR('',#412,1000.);
#57=VECTOR('',#413,1000.);
#58=VECTOR('',#458,1000.);
#59=VECTOR('',#459,1000.);
#60=VECTOR('',#460,1000.);
#61=VECTOR('',#463,1000.);
#62=VECTOR('',#464,1000.);
#63=VECTOR('',#467,1000.);
#64=VECTOR('',#468,1000.);
#65=VECTOR('',#471,1000.);
#66=VECTOR('',#472,1000.);
#67=VECTOR('',#475,1000.);
#68=VECTOR('',#476,1000.);
#69=VECTOR('',#479,1000.);
#70=ORIENTED_EDGE('',*,*,#140,.F.);
#71=ORIENTED_EDGE('',*,*,#141,.T.);
#72=ORIENTED_EDGE('',*,*,#142,.T.);
#73=ORIENTED_EDGE('',*,*,#143,.T.);
#74=ORIENTED_EDGE('',*,*,#144,.T.);
#75=ORIENTED_EDGE('',*,*,#145,.T.);
#76=ORIENTED_EDGE('',*,*,#146,.T.);
#77=ORIENTED_EDGE('',*,*,#147,.F.);
#78=ORIENTED_EDGE('',*,*,#140,.T.);
#79=ORIENTED_EDGE('',*,*,#148,.F.);
#80=ORIENTED_EDGE('',*,*,#147,.T.);
#81=ORIENTED_EDGE('',*,*,#149,.F.);
#82=ORIENTED_EDGE('',*,*,#148,.T.);
#83=ORIENTED_EDGE('',*,*,#150,.F.);
#84=ORIENTED_EDGE('',*,*,#149,.T.);
#85=ORIENTED_EDGE('',*,*,#151,.F.);
#86=ORIENTED_EDGE('',*,*,#150,.T.);
#87=ORIENTED_EDGE('',*,*,#152,.F.);
#88=ORIENTED_EDGE('',*,*,#151,.T.);
#89=ORIENTED_EDGE('',*,*,#153,.F.);
#90=ORIENTED_EDGE('',*,*,#152,.T.);
#91=ORIENTED_EDGE('',*,*,#154,.F.);
#92=ORIENTED_EDGE('',*,*,#153,.T.);
#93=ORIENTED_EDGE('',*,*,#155,.F.);
#94=ORIENTED_EDGE('',*,*,#154,.T.);
#95=ORIENTED_EDGE('',*,*,#156,.F.);
#96=ORIENTED_EDGE('',*,*,#155,.T.);
#97=ORIENTED_EDGE('',*,*,#156,.T.);
#98=ORIENTED_EDGE('',*,*,#157,.T.);
#99=ORIENTED_EDGE('',*,*,#158,.T.);
#100=ORIENTED_EDGE('',*,*,#141,.F.);
#101=ORIENTED_EDGE('',*,*,#159,.F.);
#102=ORIENTED_EDGE('',*,*,#160,.T.);
#103=ORIENTED_EDGE('',*,*,#159,.T.);
#104=ORIENTED_EDGE('',*,*,#146,.F.);
#105=ORIENTED_EDGE('',*,*,#161,.F.);
#106=ORIENTED_EDGE('',*,*,#162,.T.);
#107=ORIENTED_EDGE('',*,*,#161,.T.);
#108=ORIENTED_EDGE('',*,*,#145,.F.);
#109=ORIENTED_EDGE('',*,*,#163,.F.);
#110=ORIENTED_EDGE('',*,*,#164,.T.);
#111=ORIENTED_EDGE('',*,*,#163,.T.);
#112=ORIENTED_EDGE('',*,*,#144,.F.);
#113=ORIENTED_EDGE('',*,*,#165,.F.);
#114=ORIENTED_EDGE('',*,*,#166,.T.);
#115=ORIENTED_EDGE('',*,*,#165,.T.);
#116=ORIENTED_EDGE('',*,*,#143,.F.);
#117=ORIENTED_EDGE('',*,*,#167,.F.);
#118=ORIENTED_EDGE('',*,*,#168,.T.);
#119=ORIENTED_EDGE('',*,*,#167,.T.);
#120=ORIENTED_EDGE('',*,*,#142,.F.);
#121=ORIENTED_EDGE('',*,*,#158,.F.);
#122=ORIENTED_EDGE('',*,*,#169,.F.);
#123=ORIENTED_EDGE('',*,*,#170,.T.);
#124=ORIENTED_EDGE('',*,*,#171,.F.);
#125=ORIENTED_EDGE('',*,*,#169,.T.);
#126=ORIENTED_EDGE('',*,*,#172,.F.);
#127=ORIENTED_EDGE('',*,*,#171,.T.);
#128=ORIENTED_EDGE('',*,*,#157,.F.);
#129=ORIENTED_EDGE('',*,*,#160,.F.);
#130=ORIENTED_EDGE('',*,*,#162,.F.);
#131=ORIENTED_EDGE('',*,*,#164,.F.);
#132=ORIENTED_EDGE('',*,*,#166,.F.);
#133=ORIENTED_EDGE('',*,*,#168,.F.);
#134=ORIENTED_EDGE('',*,*,#172,.T.);
#135=ORIENTED_EDGE('',*,*,#173,.T.);
#136=ORIENTED_EDGE('',*,*,#170,.F.);
#137=ORIENTED_EDGE('',*,*,#174,.T.);
#138=ORIENTED_EDGE('',*,*,#173,.F.);
#139=ORIENTED_EDGE('',*,*,#174,.F.);
#140=EDGE_CURVE('',#175,#175,#206,.T.);
#141=EDGE_CURVE('',#176,#177,#34,.T.);
#142=EDGE_CURVE('',#177,#178,#35,.T.);
#143=EDGE_CURVE('',#178,#179,#36,.T.);
#144=EDGE_CURVE('',#179,#180,#37,.T.);
#145=EDGE_CURVE('',#180,#181,#38,.T.);
#146=EDGE_CURVE('',#181,#176,#39,.T.);
#147=EDGE_CURVE('',#182,#182,#207,.T.);
#148=EDGE_CURVE('',#183,#183,#208,.T.);
#149=EDGE_CURVE('',#184,#184,#209,.T.);
#150=EDGE_CURVE('',#185,#185,#210,.T.);
#151=EDGE_CURVE('',#186,#186,#211,.T.);
#152=EDGE_CURVE('',#187,#187,#212,.T.);
#153=EDGE_CURVE('',#188,#188,#213,.T.);
#154=EDGE_CURVE('',#189,#189,#214,.T.);
#155=EDGE_CURVE('',#190,#190,#215,.T.);
#156=EDGE_CURVE('',#191,#191,#216,.T.);
#157=EDGE_CURVE('',#193,#194,#40,.T.);
#158=EDGE_CURVE('',#194,#177,#41,.T.);
#159=EDGE_CURVE('',#193,#176,#42,.T.);
#160=EDGE_CURVE('',#195,#193,#43,.T.);
#161=EDGE_CURVE('',#195,#181,#44,.T.);
#162=EDGE_CURVE('',#196,#195,#45,.T.);
#163=EDGE_CURVE('',#196,#180,#46,.T.);
#164=EDGE_CURVE('',#197,#196,#47,.T.);
#165=EDGE_CURVE('',#197,#179,#48,.T.);
#166=EDGE_CURVE('',#198,#197,#49,.T.);
#167=EDGE_CURVE('',#198,#178,#50,.T.);
#168=EDGE_CURVE('',#194,#198,#51,.T.);
#169=EDGE_CURVE('',#199,#199,#217,.T.);
#170=EDGE_CURVE('',#200,#200,#218,.T.);
#171=EDGE_CURVE('',#201,#201,#219,.T.);
#172=EDGE_CURVE('',#202,#202,#220,.T.);
#173=EDGE_CURVE('',#203,#203,#221,.T.);
#174=EDGE_CURVE('',#204,#204,#222,.T.);
#175=VERTEX_POINT('',#509);
#176=VERTEX_POINT('',#511);
#177=VERTEX_POINT('',#512);
#178=VERTEX_POINT('',#514);
#179=VERTEX_POINT('',#516);
#180=VERTEX_POINT('',#518);
#181=VERTEX_POINT('',#520);
#182=VERTEX_POINT('',#524);
#183=VERTEX_POINT('',#527);
#184=VERTEX_POINT('',#530);
#185=VERTEX_POINT('',#533);
#186=VERTEX_POINT('',#536);
#187=VERTEX_POINT('',#539);
#188=VERTEX_POINT('',#542);
#189=VERTEX_POINT('',#545);
#190=VERTEX_POINT('',#548);
#191=VERTEX_POINT('',#551);
#192=VERTEX_POINT('',#553);
#193=VERTEX_POINT('',#556);
#194=VERTEX_POINT('',#557);
#195=VERTEX_POINT('',#562);
#196=VERTEX_POINT('',#566);
#197=VERTEX_POINT('',#570);
#198=VERTEX_POINT('',#574);
#199=VERTEX_POINT('',#580);
#200=VERTEX_POINT('',#582);
#201=VERTEX_POINT('',#585);
#202=VERTEX_POINT('',#588);
#203=VERTEX_POINT('',#592);
#204=VERTEX_POINT('',#595);
#205=VERTEX_POINT('',#597);
#206=CIRCLE('',#361,5.6);
#207=CIRCLE('',#363,5.8);
#208=CIRCLE('',#365,6.09087730188076);
#209=CIRCLE('',#367,6.965);
#210=CIRCLE('',#369,6.965);
#211=CIRCLE('',#371,6.09841284238179);
#212=CIRCLE('',#373,5.8);
#213=CIRCLE('',#375,5.6);
#214=CIRCLE('',#377,3.75);
#215=CIRCLE('',#379,3.29254559101637);
#216=CIRCLE('',#381,2.43);
#217=CIRCLE('',#390,2.68245735194571);
#218=CIRCLE('',#391,2.);
#219=CIRCLE('',#393,3.);
#220=CIRCLE('',#395,3.);
#221=CIRCLE('',#398,1.621);
#222=CIRCLE('',#400,1.621);
#223=EDGE_LOOP('',(#70));
#224=EDGE_LOOP('',(#71,#72,#73,#74,#75,#76));
#225=EDGE_LOOP('',(#77));
#226=EDGE_LOOP('',(#78));
#227=EDGE_LOOP('',(#79));
#228=EDGE_LOOP('',(#80));
#229=EDGE_LOOP('',(#81));
#230=EDGE_LOOP('',(#82));
#231=EDGE_LOOP('',(#83));
#232=EDGE_LOOP('',(#84));
#233=EDGE_LOOP('',(#85));
#234=EDGE_LOOP('',(#86));
#235=EDGE_LOOP('',(#87));
#236=EDGE_LOOP('',(#88));
#237=EDGE_LOOP('',(#89));
#238=EDGE_LOOP('',(#90));
#239=EDGE_LOOP('',(#91));
#240=EDGE_LOOP('',(#92));
#241=EDGE_LOOP('',(#93));
#242=EDGE_LOOP('',(#94));
#243=EDGE_LOOP('',(#95));
#244=EDGE_LOOP('',(#96));
#245=EDGE_LOOP('',(#97));
#246=EDGE_LOOP('',(#98,#99,#100,#101));
#247=EDGE_LOOP('',(#102,#103,#104,#105));
#248=EDGE_LOOP('',(#106,#107,#108,#109));
#249=EDGE_LOOP('',(#110,#111,#112,#113));
#250=EDGE_LOOP('',(#114,#115,#116,#117));
#251=EDGE_LOOP('',(#118,#119,#120,#121));
#252=EDGE_LOOP('',(#122));
#253=EDGE_LOOP('',(#123));
#254=EDGE_LOOP('',(#124));
#255=EDGE_LOOP('',(#125));
#256=EDGE_LOOP('',(#126));
#257=EDGE_LOOP('',(#127));
#258=EDGE_LOOP('',(#128,#129,#130,#131,#132,#133));
#259=EDGE_LOOP('',(#134));
#260=EDGE_LOOP('',(#135));
#261=EDGE_LOOP('',(#136));
#262=EDGE_LOOP('',(#137));
#263=EDGE_LOOP('',(#138));
#264=EDGE_LOOP('',(#139));
#265=FACE_BOUND('',#223,.T.);
#266=FACE_BOUND('',#224,.T.);
#267=FACE_BOUND('',#225,.T.);
#268=FACE_BOUND('',#226,.T.);
#269=FACE_BOUND('',#227,.T.);
#270=FACE_BOUND('',#228,.T.);
#271=FACE_BOUND('',#229,.T.);
#272=FACE_BOUND('',#230,.T.);
#273=FACE_BOUND('',#231,.T.);
#274=FACE_BOUND('',#232,.T.);
#275=FACE_BOUND('',#233,.T.);
#276=FACE_BOUND('',#234,.T.);
#277=FACE_BOUND('',#235,.T.);
#278=FACE_BOUND('',#236,.T.);
#279=FACE_BOUND('',#237,.T.);
#280=FACE_BOUND('',#238,.T.);
#281=FACE_BOUND('',#239,.T.);
#282=FACE_BOUND('',#240,.T.);
#283=FACE_BOUND('',#241,.T.);
#284=FACE_BOUND('',#242,.T.);
#285=FACE_BOUND('',#243,.T.);
#286=FACE_BOUND('',#244,.T.);
#287=FACE_BOUND('',#245,.T.);
#288=FACE_BOUND('',#20,.T.);
#289=FACE_BOUND('',#246,.T.);
#290=FACE_BOUND('',#247,.T.);
#291=FACE_BOUND('',#248,.T.);
#292=FACE_BOUND('',#249,.T.);
#293=FACE_BOUND('',#250,.T.);
#294=FACE_BOUND('',#251,.T.);
#295=FACE_BOUND('',#252,.T.);
#296=FACE_BOUND('',#253,.T.);
#297=FACE_BOUND('',#254,.T.);
#298=FACE_BOUND('',#255,.T.);
#299=FACE_BOUND('',#256,.T.);
#300=FACE_BOUND('',#257,.T.);
#301=FACE_BOUND('',#258,.T.);
#302=FACE_BOUND('',#259,.T.);
#303=FACE_BOUND('',#260,.T.);
#304=FACE_BOUND('',#261,.T.);
#305=FACE_BOUND('',#262,.T.);
#306=FACE_BOUND('',#263,.T.);
#307=FACE_BOUND('',#21,.T.);
#308=FACE_BOUND('',#264,.T.);
#309=PLANE('',#360);
#310=PLANE('',#364);
#311=PLANE('',#372);
#312=PLANE('',#376);
#313=PLANE('',#380);
#314=PLANE('',#383);
#315=PLANE('',#384);
#316=PLANE('',#385);
#317=PLANE('',#386);
#318=PLANE('',#387);
#319=PLANE('',#388);
#320=PLANE('',#389);
#321=PLANE('',#396);
#322=ADVANCED_FACE('',(#265,#266),#309,.F.);
#323=ADVANCED_FACE('',(#267,#268),#26,.F.);
#324=ADVANCED_FACE('',(#269,#270),#310,.F.);
#325=ADVANCED_FACE('',(#271,#272),#27,.T.);
#326=ADVANCED_FACE('',(#273,#274),#23,.T.);
#327=ADVANCED_FACE('',(#275,#276),#28,.T.);
#328=ADVANCED_FACE('',(#277,#278),#311,.F.);
#329=ADVANCED_FACE('',(#279,#280),#29,.F.);
#330=ADVANCED_FACE('',(#281,#282),#312,.F.);
#331=ADVANCED_FACE('',(#283,#284),#30,.T.);
#332=ADVANCED_FACE('',(#285,#286),#313,.F.);
#333=ADVANCED_FACE('',(#287,#288),#22,.T.);
#334=ADVANCED_FACE('',(#289),#314,.T.);
#335=ADVANCED_FACE('',(#290),#315,.T.);
#336=ADVANCED_FACE('',(#291),#316,.T.);
#337=ADVANCED_FACE('',(#292),#317,.T.);
#338=ADVANCED_FACE('',(#293),#318,.T.);
#339=ADVANCED_FACE('',(#294),#319,.T.);
#340=ADVANCED_FACE('',(#295,#296),#320,.F.);
#341=ADVANCED_FACE('',(#297,#298),#31,.T.);
#342=ADVANCED_FACE('',(#299,#300),#24,.T.);
#343=ADVANCED_FACE('',(#301,#302),#321,.F.);
#344=ADVANCED_FACE('',(#303,#304),#32,.F.);
#345=ADVANCED_FACE('',(#305,#306),#25,.F.);
#346=ADVANCED_FACE('',(#307,#308),#33,.F.);
#347=CLOSED_SHELL('',(#322,#323,#324,#325,#326,#327,#328,#329,#330,#331,
#332,#333,#334,#335,#336,#337,#338,#339,#340,#341,#342,#343,#344,#345,#346));
#348=STYLED_ITEM('',(#349),#356);
#349=PRESENTATION_STYLE_ASSIGNMENT((#350));
#350=SURFACE_STYLE_USAGE(.BOTH.,#351);
#351=SURFACE_SIDE_STYLE('',(#352));
#352=SURFACE_STYLE_FILL_AREA(#353);
#353=FILL_AREA_STYLE('',(#354));
#354=FILL_AREA_STYLE_COLOUR('',#355);
#355=COLOUR_RGB('',0.689999997615814,0.689999997615814,0.689999997615814);
#356=MANIFOLD_SOLID_BREP('CPN18-2Z',#347);
#357=SHAPE_DEFINITION_REPRESENTATION(#604,#358);
#358=SHAPE_REPRESENTATION('CPN18-2Z',(#359),#599);
#359=AXIS2_PLACEMENT_3D('',#506,#402,#403);
#360=AXIS2_PLACEMENT_3D('',#507,#404,#405);
#361=AXIS2_PLACEMENT_3D('',#508,#406,#407);
#362=AXIS2_PLACEMENT_3D('',#522,#414,#415);
#363=AXIS2_PLACEMENT_3D('',#523,#416,#417);
#364=AXIS2_PLACEMENT_3D('',#525,#418,#419);
#365=AXIS2_PLACEMENT_3D('',#526,#420,#421);
#366=AXIS2_PLACEMENT_3D('',#528,#422,#423);
#367=AXIS2_PLACEMENT_3D('',#529,#424,#425);
#368=AXIS2_PLACEMENT_3D('',#531,#426,#427);
#369=AXIS2_PLACEMENT_3D('',#532,#428,#429);
#370=AXIS2_PLACEMENT_3D('',#534,#430,#431);
#371=AXIS2_PLACEMENT_3D('',#535,#432,#433);
#372=AXIS2_PLACEMENT_3D('',#537,#434,#435);
#373=AXIS2_PLACEMENT_3D('',#538,#436,#437);
#374=AXIS2_PLACEMENT_3D('',#540,#438,#439);
#375=AXIS2_PLACEMENT_3D('',#541,#440,#441);
#376=AXIS2_PLACEMENT_3D('',#543,#442,#443);
#377=AXIS2_PLACEMENT_3D('',#544,#444,#445);
#378=AXIS2_PLACEMENT_3D('',#546,#446,#447);
#379=AXIS2_PLACEMENT_3D('',#547,#448,#449);
#380=AXIS2_PLACEMENT_3D('',#549,#450,#451);
#381=AXIS2_PLACEMENT_3D('',#550,#452,#453);
#382=AXIS2_PLACEMENT_3D('',#552,#454,#455);
#383=AXIS2_PLACEMENT_3D('',#554,#456,#457);
#384=AXIS2_PLACEMENT_3D('',#560,#461,#462);
#385=AXIS2_PLACEMENT_3D('',#564,#465,#466);
#386=AXIS2_PLACEMENT_3D('',#568,#469,#470);
#387=AXIS2_PLACEMENT_3D('',#572,#473,#474);
#388=AXIS2_PLACEMENT_3D('',#576,#477,#478);
#389=AXIS2_PLACEMENT_3D('',#578,#480,#481);
#390=AXIS2_PLACEMENT_3D('',#579,#482,#483);
#391=AXIS2_PLACEMENT_3D('',#581,#484,#485);
#392=AXIS2_PLACEMENT_3D('',#583,#486,#487);
#393=AXIS2_PLACEMENT_3D('',#584,#488,#489);
#394=AXIS2_PLACEMENT_3D('',#586,#490,#491);
#395=AXIS2_PLACEMENT_3D('',#587,#492,#493);
#396=AXIS2_PLACEMENT_3D('',#589,#494,#495);
#397=AXIS2_PLACEMENT_3D('',#590,#496,#497);
#398=AXIS2_PLACEMENT_3D('',#591,#498,#499);
#399=AXIS2_PLACEMENT_3D('',#593,#500,#501);
#400=AXIS2_PLACEMENT_3D('',#594,#502,#503);
#401=AXIS2_PLACEMENT_3D('',#596,#504,#505);
#402=DIRECTION('',(0.,0.,1.));
#403=DIRECTION('',(1.,0.,0.));
#404=DIRECTION('',(1.,0.,0.));
#405=DIRECTION('',(0.,0.,-1.));
#406=DIRECTION('',(1.,0.,0.));
#407=DIRECTION('',(0.,0.,-1.));
#408=DIRECTION('',(0.,-0.866025403784439,0.5));
#409=DIRECTION('',(0.,-0.866025403784438,-0.5));
#410=DIRECTION('',(0.,0.,-1.));
#411=DIRECTION('',(0.,0.866025403784439,-0.5));
#412=DIRECTION('',(0.,0.866025403784438,0.5));
#413=DIRECTION('',(0.,0.,1.));
#414=DIRECTION('',(-1.,0.,0.));
#415=DIRECTION('',(0.,0.,1.));
#416=DIRECTION('',(1.,0.,0.));
#417=DIRECTION('',(0.,0.,-1.));
#418=DIRECTION('',(1.,0.,0.));
#419=DIRECTION('',(0.,0.,-1.));
#420=DIRECTION('',(1.,0.,0.));
#421=DIRECTION('',(0.,0.,-1.));
#422=DIRECTION('',(1.,0.,0.));
#423=DIRECTION('',(0.,0.,-1.));
#424=DIRECTION('',(1.,0.,0.));
#425=DIRECTION('',(0.,0.,-1.));
#426=DIRECTION('',(1.,0.,0.));
#427=DIRECTION('',(0.,0.,-1.));
#428=DIRECTION('',(1.,0.,0.));
#429=DIRECTION('',(0.,0.,-1.));
#430=DIRECTION('',(-1.,0.,0.));
#431=DIRECTION('',(0.,0.,1.));
#432=DIRECTION('',(1.,0.,0.));
#433=DIRECTION('',(0.,0.,-1.));
#434=DIRECTION('',(-1.,0.,0.));
#435=DIRECTION('',(0.,0.,1.));
#436=DIRECTION('',(1.,0.,0.));
#437=DIRECTION('',(0.,0.,-1.));
#438=DIRECTION('',(1.,0.,0.));
#439=DIRECTION('',(0.,0.,-1.));
#440=DIRECTION('',(1.,0.,0.));
#441=DIRECTION('',(0.,0.,-1.));
#442=DIRECTION('',(-1.,0.,0.));
#443=DIRECTION('',(0.,0.,1.));
#444=DIRECTION('',(1.,0.,0.));
#445=DIRECTION('',(0.,0.,-1.));
#446=DIRECTION('',(-1.,0.,0.));
#447=DIRECTION('',(0.,0.,1.));
#448=DIRECTION('',(1.,0.,0.));
#449=DIRECTION('',(0.,0.,-1.));
#450=DIRECTION('',(-1.,0.,0.));
#451=DIRECTION('',(0.,0.,1.));
#452=DIRECTION('',(1.,0.,0.));
#453=DIRECTION('',(0.,0.,-1.));
#454=DIRECTION('',(1.,0.,0.));
#455=DIRECTION('',(0.,0.,-1.));
#456=DIRECTION('',(0.,0.5,0.866025403784439));
#457=DIRECTION('',(0.,-0.866025403784439,0.5));
#458=DIRECTION('',(0.,-0.866025403784439,0.5));
#459=DIRECTION('',(1.,0.,0.));
#460=DIRECTION('',(1.,0.,0.));
#461=DIRECTION('',(0.,1.,0.));
#462=DIRECTION('',(0.,0.,1.));
#463=DIRECTION('',(0.,0.,1.));
#464=DIRECTION('',(1.,0.,0.));
#465=DIRECTION('',(0.,0.5,-0.866025403784439));
#466=DIRECTION('',(0.,0.866025403784439,0.5));
#467=DIRECTION('',(0.,0.866025403784439,0.5));
#468=DIRECTION('',(1.,0.,0.));
#469=DIRECTION('',(0.,-0.5,-0.866025403784439));
#470=DIRECTION('',(0.,0.866025403784439,-0.5));
#471=DIRECTION('',(0.,0.866025403784439,-0.5));
#472=DIRECTION('',(1.,0.,0.));
#473=DIRECTION('',(0.,-1.,0.));
#474=DIRECTION('',(0.,0.,-1.));
#475=DIRECTION('',(0.,0.,-1.));
#476=DIRECTION('',(1.,0.,0.));
#477=DIRECTION('',(0.,-0.5,0.866025403784439));
#478=DIRECTION('',(0.,-0.866025403784439,-0.5));
#479=DIRECTION('',(0.,-0.866025403784439,-0.5));
#480=DIRECTION('',(1.,0.,0.));
#481=DIRECTION('',(0.,0.,-1.));
#482=DIRECTION('',(1.,0.,0.));
#483=DIRECTION('',(0.,0.,-1.));
#484=DIRECTION('',(1.,0.,0.));
#485=DIRECTION('',(0.,0.,-1.));
#486=DIRECTION('',(1.,0.,0.));
#487=DIRECTION('',(0.,0.,-1.));
#488=DIRECTION('',(1.,0.,0.));
#489=DIRECTION('',(0.,0.,-1.));
#490=DIRECTION('',(1.,0.,0.));
#491=DIRECTION('',(0.,0.,-1.));
#492=DIRECTION('',(1.,0.,0.));
#493=DIRECTION('',(0.,0.,-1.));
#494=DIRECTION('',(1.,0.,0.));
#495=DIRECTION('',(0.,0.,-1.));
#496=DIRECTION('',(-1.,0.,0.));
#497=DIRECTION('',(0.,0.,1.));
#498=DIRECTION('',(1.,0.,0.));
#499=DIRECTION('',(0.,0.,-1.));
#500=DIRECTION('',(1.,0.,0.));
#501=DIRECTION('',(0.,0.,-1.));
#502=DIRECTION('',(1.,0.,0.));
#503=DIRECTION('',(0.,0.,-1.));
#504=DIRECTION('',(-1.,0.,0.));
#505=DIRECTION('',(0.,0.,1.));
#506=CARTESIAN_POINT('',(0.,0.,0.));
#507=CARTESIAN_POINT('',(3.55,0.,0.));
#508=CARTESIAN_POINT('',(3.55,0.,0.));
#509=CARTESIAN_POINT('',(3.55,0.,-5.6));
#510=CARTESIAN_POINT('',(3.55,4.,2.3094010767585));
#511=CARTESIAN_POINT('',(3.55,4.,2.3094010767585));
#512=CARTESIAN_POINT('',(3.55,-8.88178419700125E-16,4.61880215351701));
#513=CARTESIAN_POINT('',(3.55,-8.88178419700125E-16,4.61880215351701));
#514=CARTESIAN_POINT('',(3.55,-4.,2.3094010767585));
#515=CARTESIAN_POINT('',(3.55,-4.,2.3094010767585));
#516=CARTESIAN_POINT('',(3.55,-4.,-2.3094010767585));
#517=CARTESIAN_POINT('',(3.55,-4.,-2.3094010767585));
#518=CARTESIAN_POINT('',(3.55,8.67361737988404E-16,-4.61880215351701));
#519=CARTESIAN_POINT('',(3.55,8.88178419700125E-16,-4.61880215351701));
#520=CARTESIAN_POINT('',(3.55,4.,-2.3094010767585));
#521=CARTESIAN_POINT('',(3.55,4.,-2.3094010767585));
#522=CARTESIAN_POINT('',(3.55,0.,0.));
#523=CARTESIAN_POINT('',(3.35,0.,0.));
#524=CARTESIAN_POINT('',(3.35,0.,-5.8));
#525=CARTESIAN_POINT('',(3.35,5.8,0.));
#526=CARTESIAN_POINT('',(3.35,0.,0.));
#527=CARTESIAN_POINT('',(3.35,0.,-6.09087730188076));
#528=CARTESIAN_POINT('',(3.35,0.,0.));
#529=CARTESIAN_POINT('',(4.51,0.,0.));
#530=CARTESIAN_POINT('',(4.51,0.,-6.965));
#531=CARTESIAN_POINT('',(7.64,0.,0.));
#532=CARTESIAN_POINT('',(6.2,0.,0.));
#533=CARTESIAN_POINT('',(6.2,0.,-6.965));
#534=CARTESIAN_POINT('',(6.2,0.,0.));
#535=CARTESIAN_POINT('',(7.35,0.,0.));
#536=CARTESIAN_POINT('',(7.35,0.,-6.09841284238179));
#537=CARTESIAN_POINT('',(7.35,6.09841284238179,0.));
#538=CARTESIAN_POINT('',(7.35,0.,0.));
#539=CARTESIAN_POINT('',(7.35,0.,-5.8));
#540=CARTESIAN_POINT('',(7.35,0.,0.));
#541=CARTESIAN_POINT('',(7.15,0.,0.));
#542=CARTESIAN_POINT('',(7.15,0.,-5.6));
#543=CARTESIAN_POINT('',(7.15,5.6,0.));
#544=CARTESIAN_POINT('',(7.15,0.,0.));
#545=CARTESIAN_POINT('',(7.15,0.,-3.75));
#546=CARTESIAN_POINT('',(7.15,0.,0.));
#547=CARTESIAN_POINT('',(7.3256002952772,0.,0.));
#548=CARTESIAN_POINT('',(7.3256002952772,0.,-3.29254559101637));
#549=CARTESIAN_POINT('',(7.3256002952772,3.29254559101637,0.));
#550=CARTESIAN_POINT('',(7.3256002952772,0.,0.));
#551=CARTESIAN_POINT('',(7.3256002952772,0.,-2.43));
#552=CARTESIAN_POINT('',(-1.63993521084372,0.,0.));
#553=CARTESIAN_POINT('',(7.64,2.60208521396521E-15,0.));
#554=CARTESIAN_POINT('',(0.55,4.,2.3094010767585));
#555=CARTESIAN_POINT('',(1.8,4.25,2.1650635094611));
#556=CARTESIAN_POINT('',(1.8,4.,2.3094010767585));
#557=CARTESIAN_POINT('',(1.8,-9.21571846612679E-16,4.61880215351701));
#558=CARTESIAN_POINT('',(0.55,-8.88178419700125E-16,4.61880215351701));
#559=CARTESIAN_POINT('',(0.55,4.,2.3094010767585));
#560=CARTESIAN_POINT('',(0.55,4.,-2.3094010767585));
#561=CARTESIAN_POINT('',(1.8,4.,0.));
#562=CARTESIAN_POINT('',(1.8,4.,-2.3094010767585));
#563=CARTESIAN_POINT('',(0.55,4.,-2.3094010767585));
#564=CARTESIAN_POINT('',(0.55,8.88178419700125E-16,-4.61880215351701));
#565=CARTESIAN_POINT('',(1.8,4.25,-2.1650635094611));
#566=CARTESIAN_POINT('',(1.8,8.67361737988404E-16,-4.61880215351701));
#567=CARTESIAN_POINT('',(0.55,8.67361737988404E-16,-4.61880215351701));
#568=CARTESIAN_POINT('',(0.55,-4.,-2.3094010767585));
#569=CARTESIAN_POINT('',(1.8,0.250000000000001,-4.76313972081441));
#570=CARTESIAN_POINT('',(1.8,-4.,-2.3094010767585));
#571=CARTESIAN_POINT('',(0.55,-4.,-2.3094010767585));
#572=CARTESIAN_POINT('',(0.55,-4.,2.3094010767585));
#573=CARTESIAN_POINT('',(1.8,-4.,0.));
#574=CARTESIAN_POINT('',(1.8,-4.,2.3094010767585));
#575=CARTESIAN_POINT('',(0.55,-4.,2.3094010767585));
#576=CARTESIAN_POINT('',(0.55,-8.88178419700125E-16,4.61880215351701));
#577=CARTESIAN_POINT('',(1.8,0.249999999999998,4.76313972081441));
#578=CARTESIAN_POINT('',(0.,0.,0.));
#579=CARTESIAN_POINT('',(0.,0.,0.));
#580=CARTESIAN_POINT('',(0.,0.,-2.68245735194571));
#581=CARTESIAN_POINT('',(0.,0.,0.));
#582=CARTESIAN_POINT('',(0.,0.,-2.));
#583=CARTESIAN_POINT('',(0.,0.,0.));
#584=CARTESIAN_POINT('',(0.549999999999999,0.,0.));
#585=CARTESIAN_POINT('',(0.549999999999999,0.,-3.));
#586=CARTESIAN_POINT('',(3.55,0.,0.));
#587=CARTESIAN_POINT('',(1.8,0.,0.));
#588=CARTESIAN_POINT('',(1.8,0.,-3.));
#589=CARTESIAN_POINT('',(1.8,3.,0.));
#590=CARTESIAN_POINT('',(0.,0.,0.));
#591=CARTESIAN_POINT('',(0.379,0.,0.));
#592=CARTESIAN_POINT('',(0.379,0.,-1.621));
#593=CARTESIAN_POINT('',(7.47399506344368,0.,0.));
#594=CARTESIAN_POINT('',(6.5,0.,0.));
#595=CARTESIAN_POINT('',(6.5,0.,-1.621));
#596=CARTESIAN_POINT('',(6.5,0.,0.));
#597=CARTESIAN_POINT('',(7.47399506344368,0.,0.));
#598=MECHANICAL_DESIGN_GEOMETRIC_PRESENTATION_REPRESENTATION('',(#348),
#599);
#599=(
GEOMETRIC_REPRESENTATION_CONTEXT(3)
GLOBAL_UNCERTAINTY_ASSIGNED_CONTEXT((#600))
GLOBAL_UNIT_ASSIGNED_CONTEXT((#603,#602,#601))
REPRESENTATION_CONTEXT('CPN18-2Z','TOP_LEVEL_ASSEMBLY_PART')
);
#600=UNCERTAINTY_MEASURE_WITH_UNIT(LENGTH_MEASURE(0.005),#603,
'DISTANCE_ACCURACY_VALUE','Maximum Tolerance applied to model');
#601=(
NAMED_UNIT(*)
SI_UNIT($,.STERADIAN.)
SOLID_ANGLE_UNIT()
);
#602=(
NAMED_UNIT(*)
PLANE_ANGLE_UNIT()
SI_UNIT($,.RADIAN.)
);
#603=(
LENGTH_UNIT()
NAMED_UNIT(*)
SI_UNIT(.MILLI.,.METRE.)
);
#604=PRODUCT_DEFINITION_SHAPE('','',#605);
#605=PRODUCT_DEFINITION('','',#607,#606);
#606=PRODUCT_DEFINITION_CONTEXT('',#613,'design');
#607=PRODUCT_DEFINITION_FORMATION_WITH_SPECIFIED_SOURCE('','',#609,
 .NOT_KNOWN.);
#608=PRODUCT_RELATED_PRODUCT_CATEGORY('','',(#609));
#609=PRODUCT('CPN18-2Z','CPN18-2Z','CPN18-2Z',(#611));
#610=PRODUCT_CATEGORY('','');
#611=PRODUCT_CONTEXT('',#613,'mechanical');
#612=APPLICATION_PROTOCOL_DEFINITION('international standard',
'automotive_design',2010,#613);
#613=APPLICATION_CONTEXT(
'core data for automotive mechanical design processes');
ENDSEC;
END-ISO-10303-21;
