ISO-10303-21;
HEADER;
/* Generated by software containing ST-Developer
 * from STEP Tools, Inc. (www.steptools.com) 
 */
/* OPTION: using custom renumber hook */

FILE_DESCRIPTION(
/* description */ ('STEP AP214'),
/* implementation_level */ '2;1');

FILE_NAME(
/* name */ 'CPA28-2Z',
/* time_stamp */ '2024-08-06T11:28:44+02:00',
/* author */ ('License CC BY-ND 4.0'),
/* organization */ ('CADENAS'),
/* preprocessor_version */ 'ST-DEVELOPER v19.3',
/* originating_system */ 'PARTsolutions',
/* authorisation */ '  ');

FILE_SCHEMA (('AUTOMOTIVE_DESIGN {1 0 10303 214 3 1 1}'));
ENDSEC;

DATA;
#10=PROPERTY_DEFINITION_REPRESENTATION(#14,#12);
#11=PROPERTY_DEFINITION_REPRESENTATION(#15,#13);
#12=REPRESENTATION('',(#16),#649);
#13=REPRESENTATION('',(#17),#649);
#14=PROPERTY_DEFINITION('pmi validation property','',#654);
#15=PROPERTY_DEFINITION('pmi validation property','',#654);
#16=VALUE_REPRESENTATION_ITEM('number of annotations',COUNT_MEASURE(0.));
#17=VALUE_REPRESENTATION_ITEM('number of views',COUNT_MEASURE(0.));
#18=SHAPE_REPRESENTATION_RELATIONSHIP('','',#385,#19);
#19=ADVANCED_BREP_SHAPE_REPRESENTATION('',(#383),#649);
#20=VERTEX_LOOP('',#217);
#21=VERTEX_LOOP('',#230);
#22=SPHERICAL_SURFACE('',#409,10.9399999999997);
#23=CYLINDRICAL_SURFACE('',#395,11.57);
#24=CYLINDRICAL_SURFACE('',#425,5.);
#25=CYLINDRICAL_SURFACE('',#428,2.067);
#26=B_SPLINE_CURVE_WITH_KNOTS('',3,(#561,#562,#563,#564),.UNSPECIFIED.,
 .F.,.F.,(4,4),(1.59400259722136E-6,0.000600425642720124),.UNSPECIFIED.);
#27=B_SPLINE_CURVE_WITH_KNOTS('',3,(#565,#566,#567,#568),.UNSPECIFIED.,
 .F.,.F.,(4,4),(0.00690639543728718,0.00750329012910854),.UNSPECIFIED.);
#28=CONICAL_SURFACE('',#389,7.95000000000074,0.785398163397448);
#29=CONICAL_SURFACE('',#393,9.92,0.621274706050432);
#30=CONICAL_SURFACE('',#397,11.57,0.621274706036789);
#31=CONICAL_SURFACE('',#401,8.20000000000074,0.785398163397448);
#32=CONICAL_SURFACE('',#405,5.35000000000075,0.784488299297857);
#33=CONICAL_SURFACE('',#411,0.754841206678766,1.04719755121505);
#34=CONICAL_SURFACE('',#423,4.24944465005349,0.523598775598298);
#35=CONICAL_SURFACE('',#426,2.5,0.785398163397449);
#36=CONICAL_SURFACE('',#430,2.067,1.02974425867665);
#37=LINE('',#546,#57);
#38=LINE('',#548,#58);
#39=LINE('',#550,#59);
#40=LINE('',#552,#60);
#41=LINE('',#554,#61);
#42=LINE('',#556,#62);
#43=LINE('',#572,#63);
#44=LINE('',#574,#64);
#45=LINE('',#605,#65);
#46=LINE('',#607,#66);
#47=LINE('',#609,#67);
#48=LINE('',#611,#68);
#49=LINE('',#613,#69);
#50=LINE('',#615,#70);
#51=LINE('',#617,#71);
#52=LINE('',#619,#72);
#53=LINE('',#621,#73);
#54=LINE('',#623,#74);
#55=LINE('',#625,#75);
#56=LINE('',#627,#76);
#57=VECTOR('',#437,1000.);
#58=VECTOR('',#438,1000.);
#59=VECTOR('',#439,1000.);
#60=VECTOR('',#440,1000.);
#61=VECTOR('',#441,1000.);
#62=VECTOR('',#442,1000.);
#63=VECTOR('',#451,1000.);
#64=VECTOR('',#452,1000.);
#65=VECTOR('',#493,1000.);
#66=VECTOR('',#494,1000.);
#67=VECTOR('',#495,1000.);
#68=VECTOR('',#498,1000.);
#69=VECTOR('',#499,1000.);
#70=VECTOR('',#502,1000.);
#71=VECTOR('',#503,1000.);
#72=VECTOR('',#504,1000.);
#73=VECTOR('',#507,1000.);
#74=VECTOR('',#508,1000.);
#75=VECTOR('',#511,1000.);
#76=VECTOR('',#514,1000.);
#77=ORIENTED_EDGE('',*,*,#157,.F.);
#78=ORIENTED_EDGE('',*,*,#158,.T.);
#79=ORIENTED_EDGE('',*,*,#159,.T.);
#80=ORIENTED_EDGE('',*,*,#160,.T.);
#81=ORIENTED_EDGE('',*,*,#161,.T.);
#82=ORIENTED_EDGE('',*,*,#162,.T.);
#83=ORIENTED_EDGE('',*,*,#163,.T.);
#84=ORIENTED_EDGE('',*,*,#164,.F.);
#85=ORIENTED_EDGE('',*,*,#165,.T.);
#86=ORIENTED_EDGE('',*,*,#157,.T.);
#87=ORIENTED_EDGE('',*,*,#166,.T.);
#88=ORIENTED_EDGE('',*,*,#167,.F.);
#89=ORIENTED_EDGE('',*,*,#164,.T.);
#90=ORIENTED_EDGE('',*,*,#168,.T.);
#91=ORIENTED_EDGE('',*,*,#169,.T.);
#92=ORIENTED_EDGE('',*,*,#170,.F.);
#93=ORIENTED_EDGE('',*,*,#167,.T.);
#94=ORIENTED_EDGE('',*,*,#171,.F.);
#95=ORIENTED_EDGE('',*,*,#170,.T.);
#96=ORIENTED_EDGE('',*,*,#172,.F.);
#97=ORIENTED_EDGE('',*,*,#171,.T.);
#98=ORIENTED_EDGE('',*,*,#173,.F.);
#99=ORIENTED_EDGE('',*,*,#172,.T.);
#100=ORIENTED_EDGE('',*,*,#174,.F.);
#101=ORIENTED_EDGE('',*,*,#173,.T.);
#102=ORIENTED_EDGE('',*,*,#175,.F.);
#103=ORIENTED_EDGE('',*,*,#174,.T.);
#104=ORIENTED_EDGE('',*,*,#176,.F.);
#105=ORIENTED_EDGE('',*,*,#175,.T.);
#106=ORIENTED_EDGE('',*,*,#177,.F.);
#107=ORIENTED_EDGE('',*,*,#176,.T.);
#108=ORIENTED_EDGE('',*,*,#177,.T.);
#109=ORIENTED_EDGE('',*,*,#178,.F.);
#110=ORIENTED_EDGE('',*,*,#178,.T.);
#111=ORIENTED_EDGE('',*,*,#166,.F.);
#112=ORIENTED_EDGE('',*,*,#163,.F.);
#113=ORIENTED_EDGE('',*,*,#179,.F.);
#114=ORIENTED_EDGE('',*,*,#180,.T.);
#115=ORIENTED_EDGE('',*,*,#181,.T.);
#116=ORIENTED_EDGE('',*,*,#168,.F.);
#117=ORIENTED_EDGE('',*,*,#165,.F.);
#118=ORIENTED_EDGE('',*,*,#169,.F.);
#119=ORIENTED_EDGE('',*,*,#181,.F.);
#120=ORIENTED_EDGE('',*,*,#182,.T.);
#121=ORIENTED_EDGE('',*,*,#183,.T.);
#122=ORIENTED_EDGE('',*,*,#158,.F.);
#123=ORIENTED_EDGE('',*,*,#160,.F.);
#124=ORIENTED_EDGE('',*,*,#184,.F.);
#125=ORIENTED_EDGE('',*,*,#185,.T.);
#126=ORIENTED_EDGE('',*,*,#186,.T.);
#127=ORIENTED_EDGE('',*,*,#161,.F.);
#128=ORIENTED_EDGE('',*,*,#186,.F.);
#129=ORIENTED_EDGE('',*,*,#187,.T.);
#130=ORIENTED_EDGE('',*,*,#188,.T.);
#131=ORIENTED_EDGE('',*,*,#162,.F.);
#132=ORIENTED_EDGE('',*,*,#188,.F.);
#133=ORIENTED_EDGE('',*,*,#189,.T.);
#134=ORIENTED_EDGE('',*,*,#179,.T.);
#135=ORIENTED_EDGE('',*,*,#159,.F.);
#136=ORIENTED_EDGE('',*,*,#183,.F.);
#137=ORIENTED_EDGE('',*,*,#190,.T.);
#138=ORIENTED_EDGE('',*,*,#184,.T.);
#139=ORIENTED_EDGE('',*,*,#191,.T.);
#140=ORIENTED_EDGE('',*,*,#185,.F.);
#141=ORIENTED_EDGE('',*,*,#190,.F.);
#142=ORIENTED_EDGE('',*,*,#182,.F.);
#143=ORIENTED_EDGE('',*,*,#180,.F.);
#144=ORIENTED_EDGE('',*,*,#189,.F.);
#145=ORIENTED_EDGE('',*,*,#187,.F.);
#146=ORIENTED_EDGE('',*,*,#192,.F.);
#147=ORIENTED_EDGE('',*,*,#193,.T.);
#148=ORIENTED_EDGE('',*,*,#194,.F.);
#149=ORIENTED_EDGE('',*,*,#192,.T.);
#150=ORIENTED_EDGE('',*,*,#191,.F.);
#151=ORIENTED_EDGE('',*,*,#194,.T.);
#152=ORIENTED_EDGE('',*,*,#195,.T.);
#153=ORIENTED_EDGE('',*,*,#193,.F.);
#154=ORIENTED_EDGE('',*,*,#196,.T.);
#155=ORIENTED_EDGE('',*,*,#195,.F.);
#156=ORIENTED_EDGE('',*,*,#196,.F.);
#157=EDGE_CURVE('',#197,#198,#231,.T.);
#158=EDGE_CURVE('',#197,#199,#37,.T.);
#159=EDGE_CURVE('',#199,#200,#38,.T.);
#160=EDGE_CURVE('',#200,#201,#39,.T.);
#161=EDGE_CURVE('',#201,#202,#40,.T.);
#162=EDGE_CURVE('',#202,#203,#41,.T.);
#163=EDGE_CURVE('',#203,#198,#42,.T.);
#164=EDGE_CURVE('',#204,#205,#232,.T.);
#165=EDGE_CURVE('',#204,#197,#26,.T.);
#166=EDGE_CURVE('',#198,#205,#27,.T.);
#167=EDGE_CURVE('',#206,#206,#233,.T.);
#168=EDGE_CURVE('',#205,#207,#43,.T.);
#169=EDGE_CURVE('',#207,#204,#44,.T.);
#170=EDGE_CURVE('',#208,#208,#234,.T.);
#171=EDGE_CURVE('',#209,#209,#235,.T.);
#172=EDGE_CURVE('',#210,#210,#236,.T.);
#173=EDGE_CURVE('',#211,#211,#237,.T.);
#174=EDGE_CURVE('',#212,#212,#238,.T.);
#175=EDGE_CURVE('',#213,#213,#239,.T.);
#176=EDGE_CURVE('',#214,#214,#240,.T.);
#177=EDGE_CURVE('',#215,#215,#241,.T.);
#178=EDGE_CURVE('',#216,#216,#242,.T.);
#179=EDGE_CURVE('',#218,#203,#45,.T.);
#180=EDGE_CURVE('',#218,#219,#46,.T.);
#181=EDGE_CURVE('',#219,#207,#47,.T.);
#182=EDGE_CURVE('',#219,#220,#48,.T.);
#183=EDGE_CURVE('',#220,#199,#49,.T.);
#184=EDGE_CURVE('',#221,#200,#50,.T.);
#185=EDGE_CURVE('',#221,#222,#51,.T.);
#186=EDGE_CURVE('',#222,#201,#52,.T.);
#187=EDGE_CURVE('',#222,#223,#53,.T.);
#188=EDGE_CURVE('',#223,#202,#54,.T.);
#189=EDGE_CURVE('',#223,#218,#55,.T.);
#190=EDGE_CURVE('',#220,#221,#56,.T.);
#191=EDGE_CURVE('',#224,#224,#243,.T.);
#192=EDGE_CURVE('',#225,#225,#244,.T.);
#193=EDGE_CURVE('',#226,#226,#245,.T.);
#194=EDGE_CURVE('',#227,#227,#246,.T.);
#195=EDGE_CURVE('',#228,#228,#247,.T.);
#196=EDGE_CURVE('',#229,#229,#248,.T.);
#197=VERTEX_POINT('',#544);
#198=VERTEX_POINT('',#545);
#199=VERTEX_POINT('',#547);
#200=VERTEX_POINT('',#549);
#201=VERTEX_POINT('',#551);
#202=VERTEX_POINT('',#553);
#203=VERTEX_POINT('',#555);
#204=VERTEX_POINT('',#559);
#205=VERTEX_POINT('',#560);
#206=VERTEX_POINT('',#571);
#207=VERTEX_POINT('',#573);
#208=VERTEX_POINT('',#577);
#209=VERTEX_POINT('',#580);
#210=VERTEX_POINT('',#583);
#211=VERTEX_POINT('',#586);
#212=VERTEX_POINT('',#589);
#213=VERTEX_POINT('',#592);
#214=VERTEX_POINT('',#595);
#215=VERTEX_POINT('',#598);
#216=VERTEX_POINT('',#601);
#217=VERTEX_POINT('',#603);
#218=VERTEX_POINT('',#606);
#219=VERTEX_POINT('',#608);
#220=VERTEX_POINT('',#612);
#221=VERTEX_POINT('',#616);
#222=VERTEX_POINT('',#618);
#223=VERTEX_POINT('',#622);
#224=VERTEX_POINT('',#630);
#225=VERTEX_POINT('',#633);
#226=VERTEX_POINT('',#635);
#227=VERTEX_POINT('',#638);
#228=VERTEX_POINT('',#642);
#229=VERTEX_POINT('',#645);
#230=VERTEX_POINT('',#647);
#231=CIRCLE('',#388,7.95000000000074);
#232=CIRCLE('',#390,8.20000000000074);
#233=CIRCLE('',#392,9.92);
#234=CIRCLE('',#394,11.57);
#235=CIRCLE('',#396,11.57);
#236=CIRCLE('',#398,9.92000000000074);
#237=CIRCLE('',#400,8.20000000000074);
#238=CIRCLE('',#402,7.95000000000074);
#239=CIRCLE('',#404,5.35000000000075);
#240=CIRCLE('',#406,5.10045451862579);
#241=CIRCLE('',#408,3.85045451861815);
#242=CIRCLE('',#410,0.754841206678766);
#243=CIRCLE('',#419,5.);
#244=CIRCLE('',#421,4.24944465005349);
#245=CIRCLE('',#422,2.5);
#246=CIRCLE('',#424,5.);
#247=CIRCLE('',#427,2.067);
#248=CIRCLE('',#429,2.067);
#249=EDGE_LOOP('',(#77,#78,#79,#80,#81,#82,#83));
#250=EDGE_LOOP('',(#84,#85,#86,#87));
#251=EDGE_LOOP('',(#88));
#252=EDGE_LOOP('',(#89,#90,#91));
#253=EDGE_LOOP('',(#92));
#254=EDGE_LOOP('',(#93));
#255=EDGE_LOOP('',(#94));
#256=EDGE_LOOP('',(#95));
#257=EDGE_LOOP('',(#96));
#258=EDGE_LOOP('',(#97));
#259=EDGE_LOOP('',(#98));
#260=EDGE_LOOP('',(#99));
#261=EDGE_LOOP('',(#100));
#262=EDGE_LOOP('',(#101));
#263=EDGE_LOOP('',(#102));
#264=EDGE_LOOP('',(#103));
#265=EDGE_LOOP('',(#104));
#266=EDGE_LOOP('',(#105));
#267=EDGE_LOOP('',(#106));
#268=EDGE_LOOP('',(#107));
#269=EDGE_LOOP('',(#108));
#270=EDGE_LOOP('',(#109));
#271=EDGE_LOOP('',(#110));
#272=EDGE_LOOP('',(#111,#112,#113,#114,#115,#116));
#273=EDGE_LOOP('',(#117,#118,#119,#120,#121,#122));
#274=EDGE_LOOP('',(#123,#124,#125,#126));
#275=EDGE_LOOP('',(#127,#128,#129,#130));
#276=EDGE_LOOP('',(#131,#132,#133,#134));
#277=EDGE_LOOP('',(#135,#136,#137,#138));
#278=EDGE_LOOP('',(#139));
#279=EDGE_LOOP('',(#140,#141,#142,#143,#144,#145));
#280=EDGE_LOOP('',(#146));
#281=EDGE_LOOP('',(#147));
#282=EDGE_LOOP('',(#148));
#283=EDGE_LOOP('',(#149));
#284=EDGE_LOOP('',(#150));
#285=EDGE_LOOP('',(#151));
#286=EDGE_LOOP('',(#152));
#287=EDGE_LOOP('',(#153));
#288=EDGE_LOOP('',(#154));
#289=EDGE_LOOP('',(#155));
#290=EDGE_LOOP('',(#156));
#291=FACE_BOUND('',#249,.T.);
#292=FACE_BOUND('',#250,.T.);
#293=FACE_BOUND('',#251,.T.);
#294=FACE_BOUND('',#252,.T.);
#295=FACE_BOUND('',#253,.T.);
#296=FACE_BOUND('',#254,.T.);
#297=FACE_BOUND('',#255,.T.);
#298=FACE_BOUND('',#256,.T.);
#299=FACE_BOUND('',#257,.T.);
#300=FACE_BOUND('',#258,.T.);
#301=FACE_BOUND('',#259,.T.);
#302=FACE_BOUND('',#260,.T.);
#303=FACE_BOUND('',#261,.T.);
#304=FACE_BOUND('',#262,.T.);
#305=FACE_BOUND('',#263,.T.);
#306=FACE_BOUND('',#264,.T.);
#307=FACE_BOUND('',#265,.T.);
#308=FACE_BOUND('',#266,.T.);
#309=FACE_BOUND('',#267,.T.);
#310=FACE_BOUND('',#268,.T.);
#311=FACE_BOUND('',#269,.T.);
#312=FACE_BOUND('',#270,.T.);
#313=FACE_BOUND('',#20,.T.);
#314=FACE_BOUND('',#271,.T.);
#315=FACE_BOUND('',#272,.T.);
#316=FACE_BOUND('',#273,.T.);
#317=FACE_BOUND('',#274,.T.);
#318=FACE_BOUND('',#275,.T.);
#319=FACE_BOUND('',#276,.T.);
#320=FACE_BOUND('',#277,.T.);
#321=FACE_BOUND('',#278,.T.);
#322=FACE_BOUND('',#279,.T.);
#323=FACE_BOUND('',#280,.T.);
#324=FACE_BOUND('',#281,.T.);
#325=FACE_BOUND('',#282,.T.);
#326=FACE_BOUND('',#283,.T.);
#327=FACE_BOUND('',#284,.T.);
#328=FACE_BOUND('',#285,.T.);
#329=FACE_BOUND('',#286,.T.);
#330=FACE_BOUND('',#287,.T.);
#331=FACE_BOUND('',#288,.T.);
#332=FACE_BOUND('',#289,.T.);
#333=FACE_BOUND('',#21,.T.);
#334=FACE_BOUND('',#290,.T.);
#335=PLANE('',#387);
#336=PLANE('',#391);
#337=PLANE('',#399);
#338=PLANE('',#403);
#339=PLANE('',#407);
#340=PLANE('',#412);
#341=PLANE('',#413);
#342=PLANE('',#414);
#343=PLANE('',#415);
#344=PLANE('',#416);
#345=PLANE('',#417);
#346=PLANE('',#418);
#347=PLANE('',#420);
#348=ADVANCED_FACE('',(#291),#335,.F.);
#349=ADVANCED_FACE('',(#292),#28,.F.);
#350=ADVANCED_FACE('',(#293,#294),#336,.F.);
#351=ADVANCED_FACE('',(#295,#296),#29,.T.);
#352=ADVANCED_FACE('',(#297,#298),#23,.T.);
#353=ADVANCED_FACE('',(#299,#300),#30,.T.);
#354=ADVANCED_FACE('',(#301,#302),#337,.F.);
#355=ADVANCED_FACE('',(#303,#304),#31,.F.);
#356=ADVANCED_FACE('',(#305,#306),#338,.F.);
#357=ADVANCED_FACE('',(#307,#308),#32,.T.);
#358=ADVANCED_FACE('',(#309,#310),#339,.F.);
#359=ADVANCED_FACE('',(#311,#312),#22,.T.);
#360=ADVANCED_FACE('',(#313,#314),#33,.F.);
#361=ADVANCED_FACE('',(#315),#340,.T.);
#362=ADVANCED_FACE('',(#316),#341,.T.);
#363=ADVANCED_FACE('',(#317),#342,.T.);
#364=ADVANCED_FACE('',(#318),#343,.T.);
#365=ADVANCED_FACE('',(#319),#344,.T.);
#366=ADVANCED_FACE('',(#320),#345,.T.);
#367=ADVANCED_FACE('',(#321,#322),#346,.F.);
#368=ADVANCED_FACE('',(#323,#324),#347,.F.);
#369=ADVANCED_FACE('',(#325,#326),#34,.T.);
#370=ADVANCED_FACE('',(#327,#328),#24,.T.);
#371=ADVANCED_FACE('',(#329,#330),#35,.F.);
#372=ADVANCED_FACE('',(#331,#332),#25,.F.);
#373=ADVANCED_FACE('',(#333,#334),#36,.F.);
#374=CLOSED_SHELL('',(#348,#349,#350,#351,#352,#353,#354,#355,#356,#357,
#358,#359,#360,#361,#362,#363,#364,#365,#366,#367,#368,#369,#370,#371,#372,
#373));
#375=STYLED_ITEM('',(#376),#383);
#376=PRESENTATION_STYLE_ASSIGNMENT((#377));
#377=SURFACE_STYLE_USAGE(.BOTH.,#378);
#378=SURFACE_SIDE_STYLE('',(#379));
#379=SURFACE_STYLE_FILL_AREA(#380);
#380=FILL_AREA_STYLE('',(#381));
#381=FILL_AREA_STYLE_COLOUR('',#382);
#382=COLOUR_RGB('',0.689999997615814,0.689999997615814,0.689999997615814);
#383=MANIFOLD_SOLID_BREP('CPA28-2Z',#374);
#384=SHAPE_DEFINITION_REPRESENTATION(#654,#385);
#385=SHAPE_REPRESENTATION('CPA28-2Z',(#386),#649);
#386=AXIS2_PLACEMENT_3D('',#541,#431,#432);
#387=AXIS2_PLACEMENT_3D('',#542,#433,#434);
#388=AXIS2_PLACEMENT_3D('',#543,#435,#436);
#389=AXIS2_PLACEMENT_3D('',#557,#443,#444);
#390=AXIS2_PLACEMENT_3D('',#558,#445,#446);
#391=AXIS2_PLACEMENT_3D('',#569,#447,#448);
#392=AXIS2_PLACEMENT_3D('',#570,#449,#450);
#393=AXIS2_PLACEMENT_3D('',#575,#453,#454);
#394=AXIS2_PLACEMENT_3D('',#576,#455,#456);
#395=AXIS2_PLACEMENT_3D('',#578,#457,#458);
#396=AXIS2_PLACEMENT_3D('',#579,#459,#460);
#397=AXIS2_PLACEMENT_3D('',#581,#461,#462);
#398=AXIS2_PLACEMENT_3D('',#582,#463,#464);
#399=AXIS2_PLACEMENT_3D('',#584,#465,#466);
#400=AXIS2_PLACEMENT_3D('',#585,#467,#468);
#401=AXIS2_PLACEMENT_3D('',#587,#469,#470);
#402=AXIS2_PLACEMENT_3D('',#588,#471,#472);
#403=AXIS2_PLACEMENT_3D('',#590,#473,#474);
#404=AXIS2_PLACEMENT_3D('',#591,#475,#476);
#405=AXIS2_PLACEMENT_3D('',#593,#477,#478);
#406=AXIS2_PLACEMENT_3D('',#594,#479,#480);
#407=AXIS2_PLACEMENT_3D('',#596,#481,#482);
#408=AXIS2_PLACEMENT_3D('',#597,#483,#484);
#409=AXIS2_PLACEMENT_3D('',#599,#485,#486);
#410=AXIS2_PLACEMENT_3D('',#600,#487,#488);
#411=AXIS2_PLACEMENT_3D('',#602,#489,#490);
#412=AXIS2_PLACEMENT_3D('',#604,#491,#492);
#413=AXIS2_PLACEMENT_3D('',#610,#496,#497);
#414=AXIS2_PLACEMENT_3D('',#614,#500,#501);
#415=AXIS2_PLACEMENT_3D('',#620,#505,#506);
#416=AXIS2_PLACEMENT_3D('',#624,#509,#510);
#417=AXIS2_PLACEMENT_3D('',#626,#512,#513);
#418=AXIS2_PLACEMENT_3D('',#628,#515,#516);
#419=AXIS2_PLACEMENT_3D('',#629,#517,#518);
#420=AXIS2_PLACEMENT_3D('',#631,#519,#520);
#421=AXIS2_PLACEMENT_3D('',#632,#521,#522);
#422=AXIS2_PLACEMENT_3D('',#634,#523,#524);
#423=AXIS2_PLACEMENT_3D('',#636,#525,#526);
#424=AXIS2_PLACEMENT_3D('',#637,#527,#528);
#425=AXIS2_PLACEMENT_3D('',#639,#529,#530);
#426=AXIS2_PLACEMENT_3D('',#640,#531,#532);
#427=AXIS2_PLACEMENT_3D('',#641,#533,#534);
#428=AXIS2_PLACEMENT_3D('',#643,#535,#536);
#429=AXIS2_PLACEMENT_3D('',#644,#537,#538);
#430=AXIS2_PLACEMENT_3D('',#646,#539,#540);
#431=DIRECTION('',(0.,0.,1.));
#432=DIRECTION('',(1.,0.,0.));
#433=DIRECTION('',(1.,0.,0.));
#434=DIRECTION('',(0.,0.,-1.));
#435=DIRECTION('',(1.,0.,0.));
#436=DIRECTION('',(0.,0.,-1.));
#437=DIRECTION('',(0.,0.866025403784439,0.5));
#438=DIRECTION('',(0.,-1.1556266144132E-16,1.));
#439=DIRECTION('',(0.,-0.866025403784439,0.5));
#440=DIRECTION('',(0.,-0.866025403784439,-0.5));
#441=DIRECTION('',(0.,1.1556266144132E-16,-1.));
#442=DIRECTION('',(0.,0.866025403784439,-0.5));
#443=DIRECTION('',(-1.,0.,0.));
#444=DIRECTION('',(0.,0.,1.));
#445=DIRECTION('',(1.,0.,0.));
#446=DIRECTION('',(0.,0.,-1.));
#447=DIRECTION('',(1.,0.,0.));
#448=DIRECTION('',(0.,0.,-1.));
#449=DIRECTION('',(1.,0.,0.));
#450=DIRECTION('',(0.,0.,-1.));
#451=DIRECTION('',(0.,0.866025403784439,-0.5));
#452=DIRECTION('',(0.,0.866025403784439,0.5));
#453=DIRECTION('',(1.,0.,0.));
#454=DIRECTION('',(0.,0.,-1.));
#455=DIRECTION('',(1.,0.,0.));
#456=DIRECTION('',(0.,0.,-1.));
#457=DIRECTION('',(1.,0.,0.));
#458=DIRECTION('',(0.,0.,-1.));
#459=DIRECTION('',(1.,0.,0.));
#460=DIRECTION('',(0.,0.,-1.));
#461=DIRECTION('',(-1.,0.,0.));
#462=DIRECTION('',(0.,0.,1.));
#463=DIRECTION('',(1.,0.,0.));
#464=DIRECTION('',(0.,0.,-1.));
#465=DIRECTION('',(-1.,0.,0.));
#466=DIRECTION('',(0.,0.,1.));
#467=DIRECTION('',(1.,0.,0.));
#468=DIRECTION('',(0.,0.,-1.));
#469=DIRECTION('',(1.,0.,0.));
#470=DIRECTION('',(0.,0.,-1.));
#471=DIRECTION('',(1.,0.,0.));
#472=DIRECTION('',(0.,0.,-1.));
#473=DIRECTION('',(-1.,0.,0.));
#474=DIRECTION('',(0.,0.,1.));
#475=DIRECTION('',(1.,0.,0.));
#476=DIRECTION('',(0.,0.,-1.));
#477=DIRECTION('',(-1.,0.,0.));
#478=DIRECTION('',(0.,0.,1.));
#479=DIRECTION('',(1.,0.,0.));
#480=DIRECTION('',(0.,0.,-1.));
#481=DIRECTION('',(-1.,0.,0.));
#482=DIRECTION('',(0.,0.,1.));
#483=DIRECTION('',(1.,0.,0.));
#484=DIRECTION('',(0.,0.,-1.));
#485=DIRECTION('',(1.,0.,0.));
#486=DIRECTION('',(0.,1.,0.));
#487=DIRECTION('',(1.,0.,0.));
#488=DIRECTION('',(0.,0.,-1.));
#489=DIRECTION('',(1.,0.,0.));
#490=DIRECTION('',(0.,0.,-1.));
#491=DIRECTION('',(0.,-0.5,-0.866025403784439));
#492=DIRECTION('',(0.,0.866025403784439,-0.5));
#493=DIRECTION('',(1.,0.,0.));
#494=DIRECTION('',(0.,0.866025403784439,-0.5));
#495=DIRECTION('',(1.,0.,0.));
#496=DIRECTION('',(0.,0.5,-0.866025403784439));
#497=DIRECTION('',(0.,0.866025403784439,0.5));
#498=DIRECTION('',(0.,0.866025403784439,0.5));
#499=DIRECTION('',(1.,0.,0.));
#500=DIRECTION('',(0.,0.5,0.866025403784439));
#501=DIRECTION('',(0.,-0.866025403784439,0.5));
#502=DIRECTION('',(1.,0.,0.));
#503=DIRECTION('',(0.,-0.866025403784439,0.5));
#504=DIRECTION('',(1.,0.,0.));
#505=DIRECTION('',(0.,-0.5,0.866025403784439));
#506=DIRECTION('',(0.,-0.866025403784439,-0.5));
#507=DIRECTION('',(0.,-0.866025403784439,-0.5));
#508=DIRECTION('',(1.,0.,0.));
#509=DIRECTION('',(0.,-1.,-1.1556266144132E-16));
#510=DIRECTION('',(0.,1.1556266144132E-16,-1.));
#511=DIRECTION('',(0.,1.1556266144132E-16,-1.));
#512=DIRECTION('',(0.,1.,1.1556266144132E-16));
#513=DIRECTION('',(0.,-1.1556266144132E-16,1.));
#514=DIRECTION('',(0.,-1.1556266144132E-16,1.));
#515=DIRECTION('',(1.,0.,0.));
#516=DIRECTION('',(0.,0.,-1.));
#517=DIRECTION('',(1.,0.,0.));
#518=DIRECTION('',(0.,0.,-1.));
#519=DIRECTION('',(1.,0.,0.));
#520=DIRECTION('',(0.,0.,-1.));
#521=DIRECTION('',(1.,0.,0.));
#522=DIRECTION('',(0.,0.,-1.));
#523=DIRECTION('',(1.,0.,0.));
#524=DIRECTION('',(0.,0.,-1.));
#525=DIRECTION('',(1.,0.,0.));
#526=DIRECTION('',(0.,0.,-1.));
#527=DIRECTION('',(1.,0.,0.));
#528=DIRECTION('',(0.,0.,-1.));
#529=DIRECTION('',(1.,0.,0.));
#530=DIRECTION('',(0.,0.,-1.));
#531=DIRECTION('',(-1.,0.,0.));
#532=DIRECTION('',(0.,0.,1.));
#533=DIRECTION('',(1.,0.,0.));
#534=DIRECTION('',(0.,0.,-1.));
#535=DIRECTION('',(1.,0.,0.));
#536=DIRECTION('',(0.,0.,-1.));
#537=DIRECTION('',(1.,0.,0.));
#538=DIRECTION('',(0.,0.,-1.));
#539=DIRECTION('',(-1.,0.,0.));
#540=DIRECTION('',(0.,0.,1.));
#541=CARTESIAN_POINT('',(0.,0.,0.));
#542=CARTESIAN_POINT('',(6.25,0.,0.));
#543=CARTESIAN_POINT('',(6.25,0.,0.));
#544=CARTESIAN_POINT('',(6.25,0.663940749825029,-7.9222271288277));
#545=CARTESIAN_POINT('',(6.25,-0.663940749825028,-7.9222271288277));
#546=CARTESIAN_POINT('',(6.25,8.88178419700125E-16,-8.30555349946514));
#547=CARTESIAN_POINT('',(6.25,6.5,-4.55277674973257));
#548=CARTESIAN_POINT('',(6.25,6.5,-4.55277674973257));
#549=CARTESIAN_POINT('',(6.25,6.5,2.95277674973257));
#550=CARTESIAN_POINT('',(6.25,6.5,2.95277674973257));
#551=CARTESIAN_POINT('',(6.25,-8.88178419700125E-16,6.70555349946514));
#552=CARTESIAN_POINT('',(6.25,-8.88178419700125E-16,6.70555349946514));
#553=CARTESIAN_POINT('',(6.25,-6.5,2.95277674973257));
#554=CARTESIAN_POINT('',(6.25,-6.5,2.95277674973257));
#555=CARTESIAN_POINT('',(6.25,-6.5,-4.55277674973257));
#556=CARTESIAN_POINT('',(6.25,-6.5,-4.55277674973257));
#557=CARTESIAN_POINT('',(6.25,0.,0.));
#558=CARTESIAN_POINT('',(6.,0.,0.));
#559=CARTESIAN_POINT('',(6.,0.186497867848373,-8.19787890525959));
#560=CARTESIAN_POINT('',(6.,-0.186497867848374,-8.19787890525959));
#561=CARTESIAN_POINT('',(6.,0.186497867848372,-8.19787890525959));
#562=CARTESIAN_POINT('',(6.08764721796065,0.344575361940934,-8.10661282149242));
#563=CARTESIAN_POINT('',(6.17117782944587,0.503674051029904,-8.01475715051919));
#564=CARTESIAN_POINT('',(6.25,0.663940749825028,-7.92222712882769));
#565=CARTESIAN_POINT('',(6.25000000000003,-0.663940749825016,-7.9222271288277));
#566=CARTESIAN_POINT('',(6.17096584399521,-0.503243027522962,-8.01500600205695));
#567=CARTESIAN_POINT('',(6.08742298631778,-0.344170945495599,-8.106846311436));
#568=CARTESIAN_POINT('',(6.00000000000068,-0.18649786784813,-8.19787890525973));
#569=CARTESIAN_POINT('',(5.99999999998879,8.20000000000074,0.));
#570=CARTESIAN_POINT('',(5.99999999997759,0.,0.));
#571=CARTESIAN_POINT('',(5.99999999997759,0.,-9.92));
#572=CARTESIAN_POINT('',(5.99999999998879,2.55358983848678,-9.77986928011537));
#573=CARTESIAN_POINT('',(5.99999999998879,8.67361737988404E-16,-8.30555349946514));
#574=CARTESIAN_POINT('',(5.99999999998879,9.74641016151433,-2.67846096908233));
#575=CARTESIAN_POINT('',(5.99999999997759,0.,0.));
#576=CARTESIAN_POINT('',(8.30499999995609,0.,0.));
#577=CARTESIAN_POINT('',(8.30499999995609,0.,-11.57));
#578=CARTESIAN_POINT('',(13.2381197846483,0.,0.));
#579=CARTESIAN_POINT('',(10.6949999999561,0.,0.));
#580=CARTESIAN_POINT('',(10.6949999999561,0.,-11.57));
#581=CARTESIAN_POINT('',(10.6949999999561,0.,0.));
#582=CARTESIAN_POINT('',(13.,0.,0.));
#583=CARTESIAN_POINT('',(13.,0.,-9.92000000000074));
#584=CARTESIAN_POINT('',(13.,9.92000000000074,0.));
#585=CARTESIAN_POINT('',(13.,0.,0.));
#586=CARTESIAN_POINT('',(13.,0.,-8.20000000000074));
#587=CARTESIAN_POINT('',(13.,0.,0.));
#588=CARTESIAN_POINT('',(12.75,0.,0.));
#589=CARTESIAN_POINT('',(12.75,0.,-7.95000000000074));
#590=CARTESIAN_POINT('',(12.75,7.95000000000074,0.));
#591=CARTESIAN_POINT('',(12.75,0.,0.));
#592=CARTESIAN_POINT('',(12.75,0.,-5.35000000000075));
#593=CARTESIAN_POINT('',(12.75,0.,0.));
#594=CARTESIAN_POINT('',(13.,0.,0.));
#595=CARTESIAN_POINT('',(13.,0.,-5.10045451862579));
#596=CARTESIAN_POINT('',(12.9999999999901,5.10045451862579,0.));
#597=CARTESIAN_POINT('',(12.9999999999802,0.,0.));
#598=CARTESIAN_POINT('',(12.9999999999802,0.,-3.85045451861815));
#599=CARTESIAN_POINT('',(2.75999999997784,5.3776427755281E-14,0.));
#600=CARTESIAN_POINT('',(13.6739275585011,0.,0.));
#601=CARTESIAN_POINT('',(13.6739275585011,0.,-0.754841206678766));
#602=CARTESIAN_POINT('',(13.6739275585011,0.,0.));
#603=CARTESIAN_POINT('',(13.2381197846483,0.,0.));
#604=CARTESIAN_POINT('',(3.8,-6.5,-4.55277674973257));
#605=CARTESIAN_POINT('',(3.8,-6.5,-4.55277674973257));
#606=CARTESIAN_POINT('',(3.8,-6.5,-4.55277674973257));
#607=CARTESIAN_POINT('',(3.8,-6.5,-4.55277674973257));
#608=CARTESIAN_POINT('',(3.8,8.67361737988404E-16,-8.30555349946514));
#609=CARTESIAN_POINT('',(3.8,8.67361737988404E-16,-8.30555349946514));
#610=CARTESIAN_POINT('',(3.8,8.88178419700125E-16,-8.30555349946514));
#611=CARTESIAN_POINT('',(3.8,8.88178419700125E-16,-8.30555349946514));
#612=CARTESIAN_POINT('',(3.8,6.5,-4.55277674973257));
#613=CARTESIAN_POINT('',(3.8,6.5,-4.55277674973257));
#614=CARTESIAN_POINT('',(3.8,6.5,2.95277674973257));
#615=CARTESIAN_POINT('',(3.8,6.5,2.95277674973257));
#616=CARTESIAN_POINT('',(3.8,6.5,2.95277674973257));
#617=CARTESIAN_POINT('',(3.8,6.5,2.95277674973257));
#618=CARTESIAN_POINT('',(3.8,-8.88178419700125E-16,6.70555349946514));
#619=CARTESIAN_POINT('',(3.8,-8.88178419700125E-16,6.70555349946514));
#620=CARTESIAN_POINT('',(3.8,-8.88178419700125E-16,6.70555349946514));
#621=CARTESIAN_POINT('',(3.8,-8.88178419700125E-16,6.70555349946514));
#622=CARTESIAN_POINT('',(3.8,-6.5,2.95277674973257));
#623=CARTESIAN_POINT('',(3.8,-6.5,2.95277674973257));
#624=CARTESIAN_POINT('',(3.8,-6.5,2.95277674973257));
#625=CARTESIAN_POINT('',(3.8,-6.5,2.95277674973257));
#626=CARTESIAN_POINT('',(3.8,6.5,-4.55277674973257));
#627=CARTESIAN_POINT('',(3.8,6.5,-4.55277674973257));
#628=CARTESIAN_POINT('',(3.8,0.,0.));
#629=CARTESIAN_POINT('',(3.8,0.,-0.8));
#630=CARTESIAN_POINT('',(3.8,0.,-5.8));
#631=CARTESIAN_POINT('',(4.44089209850063E-16,0.,-0.8));
#632=CARTESIAN_POINT('',(8.67361737988404E-16,0.,-0.8));
#633=CARTESIAN_POINT('',(8.67361737988404E-16,0.,-5.04944465005349));
#634=CARTESIAN_POINT('',(0.,0.,-0.8));
#635=CARTESIAN_POINT('',(0.,0.,-3.3));
#636=CARTESIAN_POINT('',(8.67361737988404E-16,0.,-0.8));
#637=CARTESIAN_POINT('',(1.3,0.,-0.8));
#638=CARTESIAN_POINT('',(1.3,0.,-5.8));
#639=CARTESIAN_POINT('',(6.25,0.,-0.8));
#640=CARTESIAN_POINT('',(0.,0.,-0.8));
#641=CARTESIAN_POINT('',(0.432999999999999,0.,-0.8));
#642=CARTESIAN_POINT('',(0.432999999999999,0.,-2.867));
#643=CARTESIAN_POINT('',(12.24197889953,0.,-0.8));
#644=CARTESIAN_POINT('',(11.,0.,-0.8));
#645=CARTESIAN_POINT('',(11.,0.,-2.867));
#646=CARTESIAN_POINT('',(11.,0.,-0.8));
#647=CARTESIAN_POINT('',(12.24197889953,0.,-0.8));
#648=MECHANICAL_DESIGN_GEOMETRIC_PRESENTATION_REPRESENTATION('',(#375),
#649);
#649=(
GEOMETRIC_REPRESENTATION_CONTEXT(3)
GLOBAL_UNCERTAINTY_ASSIGNED_CONTEXT((#650))
GLOBAL_UNIT_ASSIGNED_CONTEXT((#653,#652,#651))
REPRESENTATION_CONTEXT('CPA28-2Z','TOP_LEVEL_ASSEMBLY_PART')
);
#650=UNCERTAINTY_MEASURE_WITH_UNIT(LENGTH_MEASURE(0.005),#653,
'DISTANCE_ACCURACY_VALUE','Maximum Tolerance applied to model');
#651=(
NAMED_UNIT(*)
SI_UNIT($,.STERADIAN.)
SOLID_ANGLE_UNIT()
);
#652=(
NAMED_UNIT(*)
PLANE_ANGLE_UNIT()
SI_UNIT($,.RADIAN.)
);
#653=(
LENGTH_UNIT()
NAMED_UNIT(*)
SI_UNIT(.MILLI.,.METRE.)
);
#654=PRODUCT_DEFINITION_SHAPE('','',#655);
#655=PRODUCT_DEFINITION('','',#657,#656);
#656=PRODUCT_DEFINITION_CONTEXT('',#663,'design');
#657=PRODUCT_DEFINITION_FORMATION_WITH_SPECIFIED_SOURCE('','',#659,
 .NOT_KNOWN.);
#658=PRODUCT_RELATED_PRODUCT_CATEGORY('','',(#659));
#659=PRODUCT('CPA28-2Z','CPA28-2Z','CPA28-2Z',(#661));
#660=PRODUCT_CATEGORY('','');
#661=PRODUCT_CONTEXT('',#663,'mechanical');
#662=APPLICATION_PROTOCOL_DEFINITION('international standard',
'automotive_design',2010,#663);
#663=APPLICATION_CONTEXT(
'core data for automotive mechanical design processes');
ENDSEC;
END-ISO-10303-21;
